  0
SECTION
  2
HEADER
  9
$INSBASE
 10
0.0000
 20
0.0000
  9
$EXTMIN
 10
-31.8990
 20
-12.8443
  9
$EXTMAX
 10
30.4747
 20
24.2836
  9
$LIMMIN
 10
-31.8990
 20
-12.8443
  9
$LIMMAX
 10
30.4747
 20
24.2836
  9
$VIEWCTR
 10
-1.8750
 20
5.7460
  9
$VIEWSIZE
 40
46.832432
  9
$TEXTSTYLE
  7
STANDARD
  9
$CLAYER
  8
layout
  0
ENDSEC
  0
SECTION
  2
TABLES
  0
TABLE
  2
LTYPE
 70
4947200
  0
LTYPE
  2
CONTINUOUS
 70
    64
  3
Solid line
 72
    65
 73
     0
 40
0.0
  0
LTYPE
  2
HIDDEN
 70
    64
  3
_ _ _ _ _ _ _ _ _ _ _ _ _ _ _ _ _ _ _ _ _ _ _
 72
    65
 73
     2
 40
0.375
 49
0.25
 49
-0.125
  0
LTYPE
  2
CENTER
 70
    64
  3
____ _ ____ _ ____ _ ____ _ ____ _ ____ _ ____
 72
    65
 73
     4
 40
2.0
 49
1.25
 49
-0.25
 49
0.25
 49
-0.25
  0
LTYPE
  2
PHANTOM
 70
    64
  3
_____ _ _ _____ _ _ _____ _ _ _____ _ _ ____
 72
    65
 73
     6
 40
2.5
 49
1.25
 49
-0.25
 49
0.25
 49
-0.25
 49
0.25
 49
-0.25
  0
LTYPE
  2
DOT
 70
    64
  3
...............................................
 72
    65
 73
     2
 40
0.25
 49
0.0
 49
-0.25
  0
ENDTAB
  0
TABLE
  2
LAYER
 70
     5
  0
LAYER
  2
default
 70
    64
 62
     7
  6
CONTINUOUS
  0
LAYER
  2
0
 70
    64
 62
     7
  6
CONTINUOUS
  0
LAYER
  2
layout
 70
    64
 62
     7
  6
CONTINUOUS
  0
LAYER
  2
TOP
 70
    64
 62
     7
  6
CONTINUOUS
  0
LAYER
  2
FUSE
 70
    64
 62
     7
  6
CONTINUOUS
  0
ENDTAB
  0
TABLE
  2
STYLE
 70
     1
  0
STYLE
  2
STANDARD
 70
     0
 40
0.0
 41
1.0
 50
0.0
 71
     0
 42
0.2
  3
txt
  4

  0
ENDTAB
  0
TABLE
  2
VIEW
 70
     0
  0
ENDTAB
  0
ENDSEC
  0
SECTION
  2
BLOCKS
  0
ENDSEC
  0
SECTION
  2
ENTITIES
  0
LINE
  8
layout
 10
0.5214
 20
-4.2084
 11
14.0214
 21
-4.2084
  0
LINE
  8
layout
 10
0.5214
 20
-4.2084
 11
0.5214
 21
14.7916
  0
LINE
  8
layout
 10
27.5214
 20
-4.2084
 11
27.5214
 21
14.7916
  0
LINE
  8
layout
 10
14.0214
 20
14.7916
 11
27.5214
 21
14.7916
  0
LINE
  8
layout
 10
0.5214
 20
14.7916
 11
14.0214
 21
14.7916
  0
LINE
  8
layout
 10
14.0214
 20
-4.2084
 11
27.5214
 21
-4.2084
  0
LINE
  8
layout
 10
0.5214
 20
10.7916
 11
27.5214
 21
10.7916
  0
LINE
  8
layout
 10
0.5214
 20
0.7916
 11
27.5214
 21
0.7916
  0
LINE
  8
layout
 10
14.7714
 20
-4.2084
 11
14.7714
 21
3.2916
  0
LINE
  8
layout
 10
13.2714
 20
-4.2084
 11
13.2714
 21
3.2916
  0
LINE
  8
layout
 10
13.8344
 20
6.6916
 11
14.0214
 21
6.6916
  0
LINE
  8
layout
 10
14.0214
 20
5.7916
 11
27.5214
 21
5.7916
  0
LINE
  8
layout
 10
14.0214
 20
6.6916
 11
14.2084
 21
6.6916
  0
LINE
  8
layout
 10
14.0214
 20
5.6916
 11
14.0214
 21
6.7916
  0
LINE
  8
layout
 10
14.2084
 20
5.7916
 11
14.2084
 21
6.6916
  0
LINE
  8
layout
 10
13.8344
 20
5.7916
 11
13.8344
 21
6.6916
  0
LINE
  8
layout
 10
0.5214
 20
14.0416
 11
27.5214
 21
14.0416
  0
LINE
  8
layout
 10
10.5214
 20
13.4166
 11
27.5214
 21
13.4166
  0
LINE
  8
layout
 10
19.0214
 20
11.9166
 11
27.5214
 21
11.9166
  0
LINE
  8
layout
 10
19.0214
 20
11.9166
 11
19.0214
 21
13.4166
  0
LINE
  8
layout
 10
27.0214
 20
14.0416
 11
27.5214
 21
13.4166
  0
LINE
  8
layout
 10
19.0214
 20
13.4166
 11
19.4647
 21
14.0416
  0
LINE
  8
layout
 10
22.7047
 20
13.6960
 11
26.6049
 21
14.0416
  0
ARC
  8
layout
 10
22.0317
 20
21.2926
 40
7.6263
 50
251.9497
 51
275.0628
  0
LINE
  8
layout
 10
18.5214
 20
14.0416
 11
19.0214
 21
13.4166
  0
LINE
  8
layout
 10
10.5214
 20
13.4166
 11
10.9647
 21
14.0416
  0
LINE
  8
layout
 10
14.2047
 20
13.6960
 11
18.1049
 21
14.0416
  0
ARC
  8
layout
 10
13.5317
 20
21.2926
 40
7.6263
 50
251.9497
 51
275.0628
  0
SOLID
  8
layout
 10
29.4972
 20
3.1066
 11
29.4349
 21
3.1066
 12
29.4661
 22
3.2916
 13
29.4661
 23
3.2916
  0
SOLID
  8
layout
 10
29.4349
 20
-4.0234
 11
29.4972
 21
-4.0234
 12
29.4661
 22
-4.2084
 13
29.4661
 23
-4.2084
  0
LINE
  8
layout
 10
29.4661
 20
0.3202
 11
29.4661
 21
3.2916
  0
LINE
  8
layout
 10
29.4661
 20
-4.2084
 11
29.4661
 21
-0.8848
  0
TEXT
  8
layout
 10
29.1206
 20
-0.4756
 40
0.3789
  1
7 \\FR(1/2)
  0
LINE
  8
layout
 10
27.5839
 20
-4.2084
 11
29.5911
 21
-4.2084
  0
LINE
  8
layout
 10
27.5839
 20
3.2916
 11
29.5911
 21
3.2916
  0
SOLID
  8
layout
 10
28.4097
 20
3.1066
 11
28.3474
 21
3.1066
 12
28.3786
 22
3.2916
 13
28.3786
 23
3.2916
  0
SOLID
  8
layout
 10
28.3474
 20
0.9765
 11
28.4097
 21
0.9765
 12
28.3786
 22
0.7916
 13
28.3786
 23
0.7916
  0
LINE
  8
layout
 10
28.3786
 20
2.5147
 11
28.3786
 21
3.2916
  0
LINE
  8
layout
 10
28.3786
 20
0.7916
 11
28.3786
 21
1.3097
  0
TEXT
  8
layout
 10
28.0285
 20
1.7189
 40
0.3789
  1
2 \\FR(1/2)
  0
LINE
  8
layout
 10
27.5839
 20
0.7916
 11
28.5036
 21
0.7916
  0
LINE
  8
layout
 10
27.5839
 20
3.2916
 11
28.5036
 21
3.2916
  0
SOLID
  8
layout
 10
28.4097
 20
5.6066
 11
28.3474
 21
5.6066
 12
28.3786
 22
5.7916
 13
28.3786
 23
5.7916
  0
SOLID
  8
layout
 10
28.3474
 20
3.4765
 11
28.4097
 21
3.4765
 12
28.3786
 22
3.2916
 13
28.3786
 23
3.2916
  0
LINE
  8
layout
 10
28.3786
 20
4.6594
 11
28.3786
 21
5.7916
  0
LINE
  8
layout
 10
28.3786
 20
3.2916
 11
28.3786
 21
3.4544
  0
TEXT
  8
layout
 10
28.0285
 20
3.8636
 40
0.3789
  1
2 \\FR(1/2)
  0
LINE
  8
layout
 10
27.5839
 20
5.7916
 11
28.5036
 21
5.7916
  0
LINE
  8
layout
 10
27.5839
 20
3.2916
 11
28.5036
 21
3.2916
  0
SOLID
  8
layout
 10
30.2386
 20
10.6066
 11
30.1763
 21
10.6066
 12
30.2075
 22
10.7916
 13
30.2075
 23
10.7916
  0
SOLID
  8
layout
 10
30.1763
 20
-4.0234
 11
30.2386
 21
-4.0234
 12
30.2075
 22
-4.2084
 13
30.2075
 23
-4.2084
  0
LINE
  8
layout
 10
30.2075
 20
6.9631
 11
30.2075
 21
10.7916
  0
LINE
  8
layout
 10
30.2075
 20
-4.2084
 11
30.2075
 21
6.3379
  0
TEXT
  8
layout
 10
29.9404
 20
6.4572
 40
0.3789
  1
15
  0
LINE
  8
layout
 10
27.5839
 20
-4.2084
 11
30.3325
 21
-4.2084
  0
LINE
  8
layout
 10
27.5839
 20
10.7916
 11
30.3325
 21
10.7916
  0
SOLID
  8
layout
 10
28.4097
 20
14.6066
 11
28.3474
 21
14.6066
 12
28.3786
 22
14.7916
 13
28.3786
 23
14.7916
  0
SOLID
  8
layout
 10
28.3474
 20
14.2265
 11
28.4097
 21
14.2265
 12
28.3786
 22
14.0416
 13
28.3786
 23
14.0416
  0
LINE
  8
layout
 10
28.3786
 20
14.0416
 11
28.3786
 21
15.4287
  0
LINE
  8
layout
 10
28.3786
 20
15.4287
 11
28.5661
 21
15.4287
  0
TEXT
  8
layout
 10
28.6286
 20
15.2354
 40
0.3789
  1
\\FR(3/4)
  0
LINE
  8
layout
 10
27.5839
 20
14.7916
 11
28.5036
 21
14.7916
  0
LINE
  8
layout
 10
27.5839
 20
14.0416
 11
28.5036
 21
14.0416
  0
SOLID
  8
layout
 10
29.2500
 20
13.8566
 11
29.1877
 21
13.8566
 12
29.2189
 22
14.0416
 13
29.2189
 23
14.0416
  0
SOLID
  8
layout
 10
29.1877
 20
13.6015
 11
29.2500
 21
13.6015
 12
29.2189
 22
13.4166
 13
29.2189
 23
13.4166
  0
LINE
  8
layout
 10
29.2189
 20
13.4166
 11
29.2189
 21
14.6307
  0
LINE
  8
layout
 10
29.2189
 20
14.6307
 11
29.4064
 21
14.6307
  0
TEXT
  8
layout
 10
29.4689
 20
14.4374
 40
0.3789
  1
\\FR(5/8)
  0
LINE
  8
layout
 10
27.5839
 20
14.0416
 11
29.3439
 21
14.0416
  0
LINE
  8
layout
 10
27.5839
 20
13.4166
 11
29.3439
 21
13.4166
  0
SOLID
  8
layout
 10
28.5086
 20
13.2316
 11
28.4463
 21
13.2316
 12
28.4775
 22
13.4166
 13
28.4775
 23
13.4166
  0
SOLID
  8
layout
 10
28.4463
 20
12.1015
 11
28.5086
 21
12.1015
 12
28.4775
 22
11.9166
 13
28.4775
 23
11.9166
  0
LINE
  8
layout
 10
28.4775
 20
13.1384
 11
28.4775
 21
13.4166
  0
LINE
  8
layout
 10
28.4775
 20
11.9166
 11
28.4775
 21
11.9334
  0
TEXT
  8
layout
 10
28.1418
 20
12.3426
 40
0.3789
  1
1 \\FR(1/2)
  0
LINE
  8
layout
 10
27.5839
 20
11.9166
 11
28.6025
 21
11.9166
  0
LINE
  8
layout
 10
27.5839
 20
13.4166
 11
28.6025
 21
13.4166
  0
TEXT
  8
layout
 10
16.8612
 20
3.4085
 40
0.3789
  1
Fold
  0
TEXT
  8
layout
 10
15.4277
 20
10.2415
 40
0.3789
  1
Cut
  0
TEXT
  8
layout
 10
22.3480
 20
12.5359
 40
0.3789
  1
Cradle
  0
TEXT
  8
layout
 10
19.5305
 20
13.7329
 40
0.3789
  1
F
  0
TEXT
  8
layout
 10
11.0778
 20
13.5833
 40
0.3789
  1
F
  0
TEXT
  8
layout
 10
10.7812
 20
14.3813
 40
0.3789
  1
Spar (optional-foam)
  0
LINE
  8
layout
 10
12.7584
 20
7.3986
 11
13.8344
 21
6.6916
  0
LINE
  8
layout
 10
12.7584
 20
7.3986
 11
13.6959
 21
7.3986
  0
TEXT
  8
layout
 10
13.7584
 20
7.2053
 40
0.3789
  1
Servo
  0
SOLID
  8
layout
 10
13.4563
 20
-5.0897
 11
13.4563
 21
-5.1508
 12
13.2714
 22
-5.1203
 13
13.2714
 23
-5.1203
  0
SOLID
  8
layout
 10
14.5864
 20
-5.1508
 11
14.5864
 21
-5.0897
 12
14.7714
 22
-5.1203
 13
14.7714
 23
-5.1203
  0
LINE
  8
layout
 10
13.2714
 20
-5.1203
 11
13.5959
 21
-5.1203
  0
LINE
  8
layout
 10
14.3925
 20
-5.1203
 11
14.7714
 21
-5.1203
  0
TEXT
  8
layout
 10
13.6585
 20
-5.3136
 40
0.3789
  1
1 \\FR(1/2)
  0
LINE
  8
layout
 10
13.2714
 20
-5.2453
 11
13.2714
 21
-4.2709
  0
LINE
  8
layout
 10
14.7714
 20
-5.2453
 11
14.7714
 21
-4.2709
  0
TEXT
  8
layout
 10
13.8361
 20
-3.1639
 40
0.3789
  1
Cradle position
 50
90.0000
  0
TEXT
  8
layout
 10
17.1213
 20
-0.6642
 40
0.3789
  1
Layout "fold" and "spar" on
  0
TEXT
  8
layout
 10
17.1213
 20
-1.2426
 40
0.3789
  1
inside of wing
  0
TEXT
  8
layout
 10
17.1213
 20
-2.2944
 40
0.3789
  1
Layout "cradle" and
  0
TEXT
  8
layout
 10
17.1213
 20
-2.8728
 40
0.3789
  1
"servo" on outside of
  0
TEXT
  8
layout
 10
17.1213
 20
-3.4512
 40
0.3789
  1
wing
  0
SOLID
  8
layout
 10
19.2063
 20
11.3754
 11
19.2063
 21
11.3143
 12
19.0214
 22
11.3449
 13
19.0214
 23
11.3449
  0
SOLID
  8
layout
 10
27.3364
 20
11.3143
 11
27.3364
 21
11.3754
 12
27.5214
 22
11.3449
 13
27.5214
 23
11.3449
  0
LINE
  8
layout
 10
19.0214
 20
11.3449
 11
22.9597
 21
11.3449
  0
LINE
  8
layout
 10
23.7771
 20
11.3449
 11
27.5214
 21
11.3449
  0
TEXT
  8
layout
 10
23.0223
 20
11.1516
 40
0.3789
  1
8 \\FR(1/2)
  0
LINE
  8
layout
 10
19.0214
 20
11.2199
 11
19.0214
 21
11.8541
  0
LINE
  8
layout
 10
27.5214
 20
11.2199
 11
27.5214
 21
11.8541
  0
LINE
  8
layout
 10
0.5214
 20
5.7916
 11
14.0214
 21
5.7916
  0
LINE
  8
layout
  6
CENTER
 10
14.0214
 20
-4.2084
 11
14.0214
 21
3.2916
  0
LINE
  8
layout
  6
PHANTOM
 10
0.5214
 20
3.2916
 11
27.5214
 21
3.2916
  0
LINE
  8
layout
 10
13.8344
 20
5.7916
 11
14.2084
 21
6.6916
  0
LINE
  8
layout
 10
13.8344
 20
6.6916
 11
14.2084
 21
5.7916
  0
TEXT
  8
layout
 10
16.8612
 20
1.0145
 40
0.3789
  1
Spar line
  0
TEXT
  8
layout
 10
16.8118
 20
6.0021
 40
0.3789
  1
Spar line
  0
SOLID
  8
layout
 10
0.7063
 20
15.7695
 11
0.7063
 21
15.7084
 12
0.5214
 22
15.7390
 13
0.5214
 23
15.7390
  0
SOLID
  8
layout
 10
27.3364
 20
15.7084
 11
27.3364
 21
15.7695
 12
27.5214
 22
15.7390
 13
27.5214
 23
15.7390
  0
LINE
  8
layout
 10
0.5214
 20
15.7390
 11
13.4436
 21
15.7390
  0
LINE
  8
layout
 10
14.1216
 20
15.7390
 11
27.5214
 21
15.7390
  0
TEXT
  8
layout
 10
13.5062
 20
15.5457
 40
0.3789
  1
27
  0
LINE
  8
layout
 10
0.5214
 20
14.8541
 11
0.5214
 21
15.8640
  0
LINE
  8
layout
 10
27.5214
 20
14.8541
 11
27.5214
 21
15.8640
  0
LINE
  8
TOP
 10
-28.1700
 20
4.6140
 11
-27.1700
 21
4.6140
  0
LINE
  8
TOP
 10
-30.7500
 20
4.6140
 11
-28.2500
 21
4.6140
  0
LINE
  8
TOP
 10
-28.1700
 20
14.1140
 11
-27.1700
 21
14.1140
  0
LINE
  8
TOP
 10
-30.7500
 20
14.1140
 11
-28.2500
 21
14.1140
  0
LINE
  8
TOP
 10
-30.7500
 20
4.6140
 11
-30.7500
 21
14.1140
  0
LINE
  8
TOP
 10
-25.1700
 20
6.6140
 11
-25.1700
 21
12.1140
  0
LINE
  8
TOP
 10
-28.1700
 20
4.6140
 11
-28.1700
 21
14.1140
  0
LINE
  8
TOP
 10
-28.2500
 20
4.6140
 11
-28.2500
 21
14.1140
  0
LINE
  8
TOP
 10
-24.4200
 20
9.3040
 11
-24.4200
 21
9.4240
  0
LINE
  8
TOP
 10
-29.9200
 20
9.3040
 11
-29.9200
 21
9.4240
  0
LINE
  8
TOP
 10
-29.9200
 20
9.3040
 11
-24.4200
 21
9.3040
  0
LINE
  8
TOP
 10
-29.9200
 20
9.4240
 11
-24.4200
 21
9.4240
  0
LINE
  8
TOP
 10
-9.5450
 20
9.2080
 11
-9.5450
 21
9.3640
  0
LINE
  8
TOP
 10
-21.9200
 20
9.0830
 11
-21.9200
 21
9.6450
  0
LINE
  8
TOP
 10
-21.1700
 20
9.0830
 11
-21.1700
 21
9.6450
  0
LINE
  8
TOP
 10
-21.9200
 20
9.0830
 11
-21.1700
 21
9.0830
  0
LINE
  8
TOP
 10
-21.9200
 20
9.6450
 11
-21.1700
 21
9.6450
  0
LINE
  8
TOP
 10
-20.4200
 20
8.6140
 11
-19.9200
 21
8.6140
  0
LINE
  8
TOP
 10
-12.4200
 20
10.1140
 11
-11.9200
 21
10.1140
  0
ARC
  8
TOP
 10
-27.1700
 20
6.6140
 40
2.0000
 50
270.0000
 51
0.0000
  0
ARC
  8
TOP
 10
-27.1700
 20
12.1140
 40
2.0000
 50
0.0000
 51
90.0000
  0
LINE
  8
TOP
 10
-11.7450
 20
9.5200
 11
-11.7450
 21
9.8640
  0
LINE
  8
TOP
 10
-11.8450
 20
8.8640
 11
-11.8450
 21
9.2080
  0
LINE
  8
TOP
 10
-11.8450
 20
8.8640
 11
-11.7450
 21
8.8640
  0
LINE
  8
TOP
 10
-11.8450
 20
9.8640
 11
-11.7450
 21
9.8640
  0
LINE
  8
TOP
 10
-20.5950
 20
8.8640
 11
-20.4950
 21
8.8640
  0
LINE
  8
TOP
 10
-20.4950
 20
9.5200
 11
-20.4950
 21
9.8640
  0
LINE
  8
TOP
 10
-20.5950
 20
8.8640
 11
-20.5950
 21
9.2080
  0
LINE
  8
TOP
 10
-20.5950
 20
9.8640
 11
-20.4950
 21
9.8640
  0
POINT
  8
TOP
 10
-10.9950
 20
9.3640
  0
CIRCLE
  8
TOP
 10
-10.9950
 20
9.3640
 40
0.0500
  0
LINE
  8
TOP
 10
-9.5450
 20
9.3640
 11
-9.5450
 21
9.5200
  0
LINE
  8
TOP
 10
-5.7010
 20
9.3640
 11
-5.5450
 21
9.3640
  0
POINT
  8
TOP
 10
-5.5450
 20
9.3640
  0
LINE
  8
TOP
 10
-5.7320
 20
9.5200
 11
-5.5450
 21
9.5200
  0
LINE
  8
TOP
 10
-5.7320
 20
9.3640
 11
-5.5450
 21
9.3640
  0
LINE
  8
TOP
 10
-5.7320
 20
9.2080
 11
-5.5450
 21
9.2080
  0
LINE
  8
TOP
 10
-5.7320
 20
8.6140
 11
-5.7320
 21
10.1140
  0
LINE
  8
TOP
 10
-5.7640
 20
8.6140
 11
-5.7640
 21
10.1140
  0
LINE
  8
TOP
 10
-5.7640
 20
8.6140
 11
-5.7320
 21
8.6140
  0
LINE
  8
TOP
 10
-5.7640
 20
10.1140
 11
-5.7320
 21
10.1140
  0
LINE
  8
TOP
 10
-5.8440
 20
8.6140
 11
-5.8440
 21
10.1140
  0
LINE
  8
TOP
 10
-6.4690
 20
8.6140
 11
-6.4690
 21
10.1140
  0
LINE
  8
TOP
 10
-6.4690
 20
8.6140
 11
-5.8440
 21
8.6140
  0
LINE
  8
TOP
 10
-5.8440
 20
8.6140
 11
-5.7640
 21
8.6140
  0
LINE
  8
TOP
 10
-5.8440
 20
10.1140
 11
-5.7640
 21
10.1140
  0
LINE
  8
TOP
 10
-6.4690
 20
10.1140
 11
-5.8440
 21
10.1140
  0
LINE
  8
TOP
 10
-6.4690
 20
10.0340
 11
-5.8440
 21
10.0340
  0
LINE
  8
TOP
 10
-6.4690
 20
8.6940
 11
-5.8440
 21
8.6940
  0
LINE
  8
TOP
 10
-6.0940
 20
7.8640
 11
-6.0940
 21
8.3640
  0
LINE
  8
TOP
 10
-6.0940
 20
8.3640
 11
-6.0940
 21
8.6140
  0
POINT
  8
TOP
 10
-5.5450
 20
9.3640
  0
LINE
  8
TOP
 10
-5.5130
 20
9.0830
 11
-5.5130
 21
9.6450
  0
LINE
  8
TOP
 10
-5.5450
 20
9.0830
 11
-5.5130
 21
9.0830
  0
LINE
  8
TOP
 10
-22.5000
 20
11.5239
 11
-22.5000
 21
23.1140
  0
LINE
  8
TOP
 10
-20.0000
 20
10.6140
 11
-20.0000
 21
23.1140
  0
LINE
  8
TOP
 10
-19.9200
 20
7.2080
 11
-19.9200
 21
23.1140
  0
LINE
  8
TOP
 10
-12.4200
 20
7.2080
 11
-12.4200
 21
23.1140
  0
LINE
  8
TOP
 10
-22.5000
 20
23.1140
 11
-12.4200
 21
23.1140
  0
LINE
  8
TOP
 10
-22.5000
 20
11.5239
 11
-19.9200
 21
10.5849
  0
LINE
  8
TOP
 10
-15.8820
 20
9.1770
 11
-15.8820
 21
9.5510
  0
LINE
  8
TOP
 10
-15.8820
 20
9.1770
 11
-14.9820
 21
9.1770
  0
LINE
  8
TOP
 10
-15.8820
 20
9.5510
 11
-14.9820
 21
9.5510
  0
LINE
  8
TOP
 10
-25.1700
 20
9.5200
 11
-21.9200
 21
9.5200
  0
LINE
  8
TOP
 10
-11.8450
 20
9.5200
 11
-11.7450
 21
9.5200
  0
LINE
  8
TOP
 10
-11.9200
 20
9.5200
 11
-11.8450
 21
9.5200
  0
LINE
  8
TOP
 10
-20.4950
 20
9.5200
 11
-20.4200
 21
9.5200
  0
LINE
  8
TOP
 10
-21.1700
 20
9.5200
 11
-20.5950
 21
9.5200
  0
LINE
  8
TOP
 10
-25.1700
 20
9.2080
 11
-21.9200
 21
9.2080
  0
LINE
  8
TOP
 10
-11.8450
 20
9.2080
 11
-11.7450
 21
9.2080
  0
LINE
  8
TOP
 10
-11.9200
 20
9.2080
 11
-11.8450
 21
9.2080
  0
LINE
  8
TOP
 10
-20.4950
 20
9.2080
 11
-20.4200
 21
9.2080
  0
LINE
  8
TOP
 10
-21.1700
 20
9.2080
 11
-20.5950
 21
9.2080
  0
LINE
  8
TOP
 10
-20.4200
 20
8.6140
 11
-20.4200
 21
10.1140
  0
LINE
  8
TOP
 10
-11.9200
 20
8.6140
 11
-11.9200
 21
10.1140
  0
LINE
  8
TOP
 10
-20.5950
 20
9.5200
 11
-20.4200
 21
9.5200
  0
LINE
  8
TOP
 10
-20.5950
 20
9.2080
 11
-20.4200
 21
9.2080
  0
LINE
  8
TOP
 10
-20.5950
 20
9.5200
 11
-20.5950
 21
9.8640
  0
LINE
  8
TOP
 10
-20.4950
 20
8.8640
 11
-20.4950
 21
9.2080
  0
LINE
  8
TOP
 10
-11.8450
 20
9.5200
 11
-11.8450
 21
9.8640
  0
LINE
  8
TOP
 10
-11.7450
 20
8.8640
 11
-11.7450
 21
9.2080
  0
LINE
  8
TOP
 10
-20.4200
 20
10.1140
 11
-19.9200
 21
10.1140
  0
LINE
  8
TOP
 10
-14.9820
 20
10.1140
 11
-14.9200
 21
10.1140
  0
LINE
  8
TOP
 10
-19.9200
 20
10.1140
 11
-14.9820
 21
10.1140
  0
LINE
  8
TOP
 10
-14.9820
 20
10.0340
 11
-14.9200
 21
10.0340
  0
LINE
  8
TOP
 10
-14.9820
 20
8.6940
 11
-14.9200
 21
8.6940
  0
LINE
  8
TOP
 10
-19.9200
 20
8.6140
 11
-14.9820
 21
8.6140
  0
LINE
  8
TOP
 10
-12.4200
 20
8.6140
 11
-11.9200
 21
8.6140
  0
LINE
  8
TOP
 10
-14.9200
 20
8.6140
 11
-12.4200
 21
8.6140
  0
LINE
  8
TOP
 10
-14.9820
 20
8.6140
 11
-14.9200
 21
8.6140
  0
LINE
  8
TOP
 10
-14.9820
 20
9.1770
 11
-14.9820
 21
9.5510
  0
LINE
  8
TOP
 10
-14.9820
 20
10.0340
 11
-14.9820
 21
10.1140
  0
LINE
  8
TOP
 10
-14.9820
 20
8.6140
 11
-14.9820
 21
8.6940
  0
LINE
  8
TOP
 10
-14.9200
 20
10.0340
 11
-14.9200
 21
10.1140
  0
LINE
  8
TOP
 10
-14.9200
 20
8.6140
 11
-14.9200
 21
8.6940
  0
LINE
  8
TOP
 10
-7.0040
 20
7.8640
 11
-7.0040
 21
23.1140
  0
LINE
  8
TOP
 10
-6.0940
 20
10.1140
 11
-6.0940
 21
23.1140
  0
LINE
  8
TOP
 10
-7.0040
 20
23.1140
 11
-6.0940
 21
23.1140
  0
SOLID
  8
layout
 10
-22.3150
 20
23.7741
 11
-22.3150
 21
23.7130
 12
-22.5000
 22
23.7436
 13
-22.5000
 23
23.7436
  0
SOLID
  8
layout
 10
-20.1849
 20
23.7130
 11
-20.1849
 21
23.7741
 12
-20.0000
 22
23.7436
 13
-20.0000
 23
23.7436
  0
LINE
  8
layout
 10
-22.5000
 20
23.7436
 11
-21.7451
 21
23.7436
  0
LINE
  8
layout
 10
-20.9231
 20
23.7436
 11
-20.0000
 21
23.7436
  0
TEXT
  8
layout
 10
-21.6825
 20
23.5503
 40
0.3789
  1
2 \\FR(1/2)
  0
LINE
  8
layout
 10
-22.5000
 20
23.1765
 11
-22.5000
 21
23.8686
  0
LINE
  8
layout
 10
-20.0000
 20
23.1765
 11
-20.0000
 21
23.8686
  0
SOLID
  8
layout
 10
-23.3881
 20
22.9290
 11
-23.4504
 21
22.9290
 12
-23.4193
 22
23.1140
 13
-23.4193
 23
23.1140
  0
SOLID
  8
layout
 10
-23.4504
 20
10.7989
 11
-23.3881
 21
10.7989
 12
-23.4193
 22
10.6140
 13
-23.4193
 23
10.6140
  0
LINE
  8
layout
 10
-23.4193
 20
17.9556
 11
-23.4193
 21
23.1140
  0
LINE
  8
layout
 10
-23.4193
 20
10.6140
 11
-23.4193
 21
16.7506
  0
TEXT
  8
layout
 10
-23.8946
 20
17.1598
 40
0.3789
  1
12 \\FR(1/2)
  0
LINE
  8
layout
 10
-23.5443
 20
23.1140
 11
-22.5625
 21
23.1140
  0
LINE
  8
layout
 10
-23.5443
 20
10.6140
 11
-22.5624
 21
10.6140
  0
LINE
  8
TOP
  6
HIDDEN
 10
-14.9820
 20
10.1140
 11
-14.9820
 21
23.1140
  0
LINE
  8
TOP
  6
HIDDEN
 10
-14.9200
 20
8.6940
 11
-14.9200
 21
10.0340
  0
LINE
  8
TOP
  6
HIDDEN
 10
-14.9200
 20
10.1140
 11
-14.9200
 21
23.1140
  0
LINE
  8
TOP
  6
HIDDEN
 10
-14.9200
 20
7.2080
 11
-14.9200
 21
8.6140
  0
LINE
  8
TOP
  6
HIDDEN
 10
-14.9820
 20
7.2080
 11
-14.9820
 21
8.6140
  0
LINE
  8
TOP
  6
HIDDEN
 10
-14.9820
 20
8.6940
 11
-14.9820
 21
9.1770
  0
LINE
  8
TOP
  6
HIDDEN
 10
-14.9820
 20
9.5510
 11
-14.9820
 21
10.0340
  0
LINE
  8
TOP
  6
HIDDEN
 10
-14.9200
 20
10.0340
 11
-12.4200
 21
10.0340
  0
LINE
  8
TOP
  6
HIDDEN
 10
-14.9200
 20
10.1140
 11
-12.4200
 21
10.1140
  0
LINE
  8
TOP
  6
HIDDEN
 10
-12.4200
 20
10.0340
 11
-11.9200
 21
10.0340
  0
LINE
  8
TOP
  6
HIDDEN
 10
-12.4200
 20
8.6940
 11
-11.9200
 21
8.6940
  0
LINE
  8
TOP
  6
HIDDEN
 10
-14.9200
 20
8.6940
 11
-12.4200
 21
8.6940
  0
LINE
  8
TOP
  6
HIDDEN
 10
-19.9200
 20
8.6940
 11
-14.9820
 21
8.6940
  0
LINE
  8
TOP
  6
HIDDEN
 10
-19.9200
 20
10.0340
 11
-14.9820
 21
10.0340
  0
LINE
  8
TOP
  6
HIDDEN
 10
-20.4200
 20
10.0340
 11
-19.9200
 21
10.0340
  0
LINE
  8
TOP
  6
HIDDEN
 10
-20.4200
 20
8.6940
 11
-19.9200
 21
8.6940
  0
TEXT
  8
TOP
 10
-30.2731
 20
6.5024
 40
0.1263
  1
3 MM Depron
  0
TEXT
  8
TOP
 10
-27.6594
 20
6.5376
 40
0.1263
  1
3 MM Depron
  0
SOLID
  8
layout
 10
-4.5603
 20
9.9290
 11
-4.6226
 21
9.9290
 12
-4.5915
 22
10.1140
 13
-4.5915
 23
10.1140
  0
SOLID
  8
layout
 10
-4.6226
 20
8.7989
 11
-4.5603
 21
8.7989
 12
-4.5915
 22
8.6140
 13
-4.5915
 23
8.6140
  0
LINE
  8
layout
 10
-4.5915
 20
8.6140
 11
-4.5915
 21
11.2620
  0
LINE
  8
layout
 10
-4.5915
 20
11.2620
 11
-4.4040
 21
11.2620
  0
TEXT
  8
layout
 10
-4.3415
 20
11.0687
 40
0.3789
  1
1 \\FR(1/2)
  0
LINE
  8
layout
 10
-5.7815
 20
8.6140
 11
-4.4665
 21
8.6140
  0
LINE
  8
layout
 10
-5.7815
 20
10.1140
 11
-4.4665
 21
10.1140
  0
LINE
  8
TOP
 10
-11.7450
 20
9.5200
 11
-9.5450
 21
9.5200
  0
LINE
  8
TOP
 10
-11.7450
 20
9.2080
 11
-9.5238
 21
9.2080
  0
LINE
  8
TOP
 10
-5.7319
 20
9.3687
 11
-5.5449
 21
9.3687
  0
LINE
  8
TOP
 10
-5.5130
 20
9.3152
 11
-5.3554
 21
9.3152
  0
LINE
  8
TOP
 10
-5.5130
 20
9.4175
 11
-5.3554
 21
9.4175
  0
LINE
  8
TOP
 10
-5.3554
 20
9.3152
 11
-5.3554
 21
9.4175
  0
LINE
  8
TOP
 10
-5.5450
 20
8.8640
 11
-5.5450
 21
9.8640
  0
LINE
  8
TOP
 10
-5.5450
 20
9.6450
 11
-5.5130
 21
9.6450
  0
LINE
  8
TOP
 10
-5.4407
 20
9.4176
 11
-5.4407
 21
9.8641
  0
LINE
  8
TOP
 10
-5.4407
 20
8.8640
 11
-5.4407
 21
9.3152
  0
LINE
  8
TOP
 10
-5.5450
 20
9.8640
 11
-5.4407
 21
9.8640
  0
LINE
  8
TOP
 10
-5.5450
 20
8.8640
 11
-5.4407
 21
8.8640
  0
SOLID
  8
layout
 10
-8.4791
 20
22.9290
 11
-8.5414
 21
22.9290
 12
-8.5103
 22
23.1140
 13
-8.5103
 23
23.1140
  0
SOLID
  8
layout
 10
-8.5414
 20
9.5489
 11
-8.4791
 21
9.5489
 12
-8.5103
 22
9.3640
 13
-8.5103
 23
9.3640
  0
LINE
  8
layout
 10
-8.5103
 20
17.8381
 11
-8.5103
 21
23.1140
  0
LINE
  8
layout
 10
-8.5103
 20
9.3640
 11
-8.5103
 21
16.6331
  0
TEXT
  8
layout
 10
-8.9867
 20
17.0423
 40
0.3789
  1
13 \\FR(3/4)
  0
LINE
  8
layout
 10
-8.6353
 20
23.1140
 11
-7.0665
 21
23.1140
  0
LINE
  8
layout
 10
-10.9325
 20
9.3640
 11
-8.3853
 21
9.3640
  0
TEXT
  8
TOP
 10
-19.1852
 20
15.3398
 40
0.3789
  1
WING 2MM
  0
TEXT
  8
TOP
 10
-18.6256
 20
14.9634
 40
0.3789
  1
DEPRON
  0
TEXT
  8
TOP
 10
-28.9772
 20
20.0447
 40
0.3789
  1
ALERON AND TAIL
  0
TEXT
  8
TOP
 10
-28.9306
 20
19.6683
 40
0.3789
  1
3MM DEPRON
  0
LINE
  8
FUSE
 10
-19.9200
 20
0.0000
 11
-19.5000
 21
0.0000
  0
LINE
  8
FUSE
 10
-20.0000
 20
-0.0380
 11
-20.0000
 21
0.0800
  0
LINE
  8
FUSE
 10
-14.9200
 20
-0.3750
 11
-14.9200
 21
0.3750
  0
LINE
  8
FUSE
 10
-14.9825
 20
-0.3750
 11
-14.9825
 21
0.3750
  0
LINE
  8
FUSE
 10
-22.5000
 20
0.0800
 11
-19.5035
 21
0.0800
  0
POINT
  8
FUSE
 10
-14.9513
 20
0.0000
  0
POINT
  8
FUSE
 10
-12.5800
 20
0.0000
  0
ARC
  8
FUSE
 10
-14.9303
 20
-7.1710
 40
7.5463
 50
71.8539
 51
95.0625
  0
ARC
  8
FUSE
 10
-14.9303
 20
-7.1710
 40
7.6263
 50
71.0115
 51
95.0628
  0
LINE
  8
FUSE
 10
-19.9200
 20
0.0000
 11
-19.9200
 21
0.0800
  0
LINE
  8
FUSE
 10
-19.9200
 20
-0.0800
 11
-19.9200
 21
0.0000
  0
LINE
  8
FUSE
 10
-19.9200
 20
-0.0800
 11
-19.5033
 21
-0.0800
  0
POINT
  8
FUSE
 10
-12.4200
 20
0.0000
  0
ARC
  8
FUSE
 10
-12.4627
 20
0.0000
 40
0.0426
 50
288.9465
 51
71.0535
  0
LINE
  8
FUSE
 10
-22.5000
 20
-0.0380
 11
-22.5000
 21
0.0800
  0
LINE
  8
FUSE
 10
-22.5000
 20
-0.0380
 11
-20.0000
 21
-0.0380
  0
LINE
  8
FUSE
 10
-20.4200
 20
-0.7050
 11
-11.9200
 21
-0.7050
  0
LINE
  8
FUSE
 10
-20.4200
 20
-0.7850
 11
-20.4200
 21
-0.7050
  0
LINE
  8
FUSE
 10
-11.9200
 20
-0.7850
 11
-11.9200
 21
-0.7050
  0
LINE
  8
FUSE
 10
-20.4200
 20
-0.7050
 11
-19.9200
 21
-0.0800
  0
LINE
  8
FUSE
 10
-12.4200
 20
0.0000
 11
-11.9200
 21
-0.7050
  0
LINE
  8
FUSE
 10
-20.4200
 20
-0.7850
 11
-11.9200
 21
-0.7850
  0
LINE
  8
FUSE
 10
-20.3176
 20
-0.7050
 11
-19.8176
 21
-0.0800
  0
LINE
  8
FUSE
 10
-12.4816
 20
-0.0515
 11
-12.0181
 21
-0.7050
  0
POINT
  8
FUSE
 10
-19.5000
 20
0.0000
  0
LINE
  8
FUSE
 10
-19.5000
 20
0.0000
 11
-15.5963
 21
0.3459
  0
LINE
  8
FUSE
 10
-19.5035
 20
0.0800
 11
-15.6033
 21
0.4256
  0
LINE
  8
FUSE
 10
-19.5000
 20
0.0000
 11
-15.5963
 21
-0.3459
  0
LINE
  8
FUSE
 10
-19.5035
 20
-0.0800
 11
-15.6033
 21
-0.4256
  0
ARC
  8
FUSE
 10
-14.9303
 20
7.1710
 40
7.6263
 50
264.9372
 51
288.9885
  0
ARC
  8
FUSE
 10
-14.9303
 20
7.1710
 40
7.5463
 50
264.9375
 51
288.1461
  0
LINE
  8
FUSE
 10
-12.5673
 20
-0.0800
 11
-12.3633
 21
-0.0800
  0
LINE
  8
FUSE
 10
-20.1700
 20
-0.8170
 11
-19.2950
 21
-0.8170
  0
LINE
  8
FUSE
 10
-25.1700
 20
-1.0040
 11
-9.5450
 21
-1.0040
  0
LINE
  8
FUSE
 10
-12.1700
 20
-0.8170
 11
-12.1700
 21
-0.7850
  0
LINE
  8
FUSE
 10
-13.0450
 20
-0.8170
 11
-13.0450
 21
-0.7850
  0
LINE
  8
FUSE
 10
-13.0450
 20
-0.8170
 11
-12.1700
 21
-0.8170
  0
LINE
  8
FUSE
 10
-20.1700
 20
-0.8170
 11
-20.1700
 21
-0.7850
  0
LINE
  8
FUSE
 10
-19.2950
 20
-0.8170
 11
-19.2950
 21
-0.7850
  0
LINE
  8
FUSE
 10
-27.9200
 20
-0.8170
 11
-9.5450
 21
-0.8170
  0
LINE
  8
FUSE
 10
-9.5450
 20
-1.0040
 11
-9.5450
 21
-0.8170
  0
LINE
  8
FUSE
 10
-27.9200
 20
-1.0040
 11
-27.9200
 21
-0.8170
  0
LINE
  8
FUSE
 10
-25.1700
 20
-1.1220
 11
-25.1700
 21
-1.0040
  0
LINE
  8
FUSE
 10
-28.1700
 20
-1.1220
 11
-25.1700
 21
-1.1220
  0
LINE
  8
FUSE
 10
-30.7500
 20
-1.1220
 11
-30.7500
 21
-1.0040
  0
LINE
  8
FUSE
 10
-28.2500
 20
-1.1220
 11
-28.2500
 21
-1.0040
  0
LINE
  8
FUSE
 10
-28.1700
 20
-1.1220
 11
-28.1700
 21
-1.0040
  0
LINE
  8
FUSE
 10
-28.1700
 20
-1.0040
 11
-27.9200
 21
-1.0040
  0
LINE
  8
FUSE
 10
-27.9200
 20
-1.0040
 11
-25.1700
 21
-1.0040
  0
LINE
  8
FUSE
 10
-30.7500
 20
-1.0040
 11
-28.2500
 21
-1.0040
  0
LINE
  8
FUSE
 10
-28.2500
 20
-1.0040
 11
-28.1700
 21
-1.0040
  0
LINE
  8
FUSE
 10
-30.7500
 20
-1.1220
 11
-28.2500
 21
-1.1220
  0
POINT
  8
FUSE
 10
-11.7950
 20
-1.0440
  0
CIRCLE
  8
FUSE
 10
-11.7950
 20
-1.0440
 40
0.0500
  0
POINT
  8
FUSE
 10
-20.5450
 20
-1.0440
  0
CIRCLE
  8
FUSE
 10
-20.5450
 20
-1.0440
 40
0.0500
  0
LINE
  8
FUSE
 10
-21.1700
 20
-0.8170
 11
-21.1700
 21
-0.7850
  0
LINE
  8
FUSE
 10
-21.9200
 20
-0.8170
 11
-21.9200
 21
-0.7850
  0
LINE
  8
FUSE
 10
-21.9200
 20
-0.7850
 11
-21.1700
 21
-0.7850
  0
LINE
  8
FUSE
 10
-17.2950
 20
-1.0360
 11
-17.2950
 21
-1.0040
  0
LINE
  8
FUSE
 10
-16.5450
 20
-1.0360
 11
-16.5450
 21
-1.0040
  0
LINE
  8
FUSE
 10
-17.2950
 20
-1.0360
 11
-16.5450
 21
-1.0360
  0
LINE
  8
FUSE
 10
-12.6070
 20
-1.0360
 11
-12.6070
 21
-1.0040
  0
LINE
  8
FUSE
 10
-14.6070
 20
-1.0360
 11
-14.6070
 21
-1.0040
  0
LINE
  8
FUSE
 10
-14.6070
 20
-1.0360
 11
-12.6070
 21
-1.0360
  0
POINT
  8
FUSE
 10
-11.2950
 20
-0.7850
  0
LINE
  8
FUSE
 10
-11.0450
 20
-1.2040
 11
-11.0450
 21
-1.0040
  0
LINE
  8
FUSE
 10
-10.9450
 20
-1.2040
 11
-10.9450
 21
-1.0040
  0
LINE
  8
FUSE
 10
-11.0450
 20
-1.2040
 11
-10.9450
 21
-1.2040
  0
LINE
  8
FUSE
 10
-29.4200
 20
3.7460
 11
-27.6318
 21
3.7460
  0
LINE
  8
FUSE
 10
-24.4200
 20
-0.8170
 11
-24.4200
 21
-0.3529
  0
LINE
  8
FUSE
 10
-29.9200
 20
1.3901
 11
-29.9200
 21
3.2460
  0
LINE
  8
FUSE
 10
-29.7736
 20
1.0366
 11
-27.9200
 21
-0.8170
  0
LINE
  8
FUSE
 10
-25.8998
 20
2.7460
 11
-24.6880
 21
0.6471
  0
ARC
  8
FUSE
 10
-27.6318
 20
1.7460
 40
2.0000
 50
30.0007
 51
90.0000
  0
ARC
  8
FUSE
 10
-26.4200
 20
-0.3529
 40
2.0000
 50
0.0000
 51
30.0007
  0
ARC
  8
FUSE
 10
-29.4200
 20
3.2460
 40
0.5000
 50
90.0000
 51
180.0000
  0
ARC
  8
FUSE
 10
-29.4200
 20
1.3901
 40
0.5000
 50
180.0000
 51
225.0000
  0
LINE
  8
FUSE
 10
-28.1700
 20
-2.1220
 11
-27.1700
 21
-2.1220
  0
LINE
  8
FUSE
 10
-30.7500
 20
-2.1220
 11
-28.2500
 21
-2.1220
  0
LINE
  8
FUSE
 10
-28.1700
 20
-11.6220
 11
-27.1700
 21
-11.6220
  0
LINE
  8
FUSE
 10
-30.7500
 20
-11.6220
 11
-28.2500
 21
-11.6220
  0
LINE
  8
FUSE
 10
-30.7500
 20
-11.6220
 11
-30.7500
 21
-2.1220
  0
LINE
  8
FUSE
 10
-25.1700
 20
-6.7160
 11
-25.1700
 21
-4.1220
  0
LINE
  8
FUSE
 10
-28.1700
 20
-11.6220
 11
-28.1700
 21
-2.1220
  0
LINE
  8
FUSE
 10
-28.2500
 20
-11.6220
 11
-28.2500
 21
-2.1220
  0
LINE
  8
FUSE
 10
-27.9200
 20
-7.0280
 11
-27.9200
 21
-6.7160
  0
LINE
  8
FUSE
 10
-24.4200
 20
-6.9320
 11
-24.4200
 21
-6.8120
  0
LINE
  8
FUSE
 10
-29.9200
 20
-6.9320
 11
-29.9200
 21
-6.8120
  0
LINE
  8
FUSE
 10
-29.9200
 20
-6.8120
 11
-24.4200
 21
-6.8120
  0
LINE
  8
FUSE
 10
-29.9200
 20
-6.9320
 11
-24.4200
 21
-6.9320
  0
LINE
  8
FUSE
 10
-11.2450
 20
-7.0280
 11
-9.5450
 21
-7.0280
  0
LINE
  8
FUSE
 10
-11.2450
 20
-6.7160
 11
-9.5450
 21
-6.7160
  0
LINE
  8
FUSE
 10
-9.5450
 20
-6.8720
 11
-9.5450
 21
-6.7160
  0
LINE
  8
FUSE
 10
-21.9200
 20
-6.7160
 11
-21.9200
 21
-6.5910
  0
LINE
  8
FUSE
 10
-21.1700
 20
-7.1530
 11
-21.1700
 21
-7.0280
  0
LINE
  8
FUSE
 10
-14.6070
 20
-6.7160
 11
-14.6070
 21
-6.4970
  0
LINE
  8
FUSE
 10
-16.5450
 20
-7.1530
 11
-16.5450
 21
-7.0280
  0
LINE
  8
FUSE
 10
-17.2950
 20
-6.7160
 11
-17.2950
 21
-6.5910
  0
LINE
  8
FUSE
 10
-17.2950
 20
-6.5910
 11
-16.5450
 21
-6.5910
  0
LINE
  8
FUSE
 10
-17.2950
 20
-7.1530
 11
-16.5450
 21
-7.1530
  0
LINE
  8
FUSE
 10
-21.9200
 20
-6.5910
 11
-21.1700
 21
-6.5910
  0
LINE
  8
FUSE
 10
-21.9200
 20
-7.1530
 11
-21.1700
 21
-7.1530
  0
LINE
  8
FUSE
 10
-12.1700
 20
-7.6220
 11
-12.1700
 21
-7.0280
  0
LINE
  8
FUSE
 10
-13.0450
 20
-7.6220
 11
-13.0450
 21
-7.2470
  0
LINE
  8
FUSE
 10
-19.2950
 20
-7.6220
 11
-19.2950
 21
-7.0280
  0
LINE
  8
FUSE
 10
-20.1700
 20
-7.6220
 11
-20.1700
 21
-7.0280
  0
LINE
  8
FUSE
 10
-13.0450
 20
-6.1220
 11
-12.1700
 21
-6.1220
  0
LINE
  8
FUSE
 10
-13.0450
 20
-7.6220
 11
-12.1700
 21
-7.6220
  0
LINE
  8
FUSE
 10
-20.1700
 20
-6.1220
 11
-19.2950
 21
-6.1220
  0
LINE
  8
FUSE
 10
-20.1700
 20
-7.6220
 11
-19.2950
 21
-7.6220
  0
ARC
  8
FUSE
 10
-27.1700
 20
-4.1220
 40
2.0000
 50
0.0000
 51
90.0000
  0
ARC
  8
FUSE
 10
-27.1700
 20
-9.6220
 40
2.0000
 50
270.0000
 51
0.0000
  0
LINE
  8
FUSE
 10
-11.7450
 20
-7.3720
 11
-11.7450
 21
-7.0280
  0
LINE
  8
FUSE
 10
-11.8450
 20
-6.7160
 11
-11.8450
 21
-6.3720
  0
LINE
  8
FUSE
 10
-11.8450
 20
-6.3720
 11
-11.7450
 21
-6.3720
  0
LINE
  8
FUSE
 10
-11.8450
 20
-7.3720
 11
-11.7450
 21
-7.3720
  0
LINE
  8
FUSE
 10
-20.5950
 20
-6.3720
 11
-20.4950
 21
-6.3720
  0
LINE
  8
FUSE
 10
-20.4950
 20
-7.3720
 11
-20.4950
 21
-7.0280
  0
LINE
  8
FUSE
 10
-20.5950
 20
-6.7160
 11
-20.5950
 21
-6.3720
  0
LINE
  8
FUSE
 10
-20.5950
 20
-7.3720
 11
-20.4950
 21
-7.3720
  0
POINT
  8
FUSE
 10
-10.9950
 20
-6.8720
  0
CIRCLE
  8
FUSE
 10
-10.9950
 20
-6.8720
 40
0.0500
  0
LINE
  8
FUSE
 10
-6.5450
 20
-1.0040
 11
-6.5450
 21
-0.8170
  0
LINE
  8
FUSE
 10
-6.3890
 20
-1.0040
 11
-6.3890
 21
-0.8170
  0
LINE
  8
FUSE
 10
-6.2330
 20
-1.0040
 11
-6.2330
 21
-0.8170
  0
LINE
  8
FUSE
 10
-7.1390
 20
-0.8170
 11
-5.6390
 21
-0.8170
  0
LINE
  8
FUSE
 10
-7.1390
 20
-0.7850
 11
-5.6390
 21
-0.7850
  0
LINE
  8
FUSE
 10
-5.6390
 20
-0.8170
 11
-5.6390
 21
-0.7850
  0
LINE
  8
FUSE
 10
-7.1390
 20
-0.8170
 11
-7.1390
 21
-0.7850
  0
LINE
  8
FUSE
 10
-7.1390
 20
-0.7050
 11
-5.6390
 21
-0.7050
  0
LINE
  8
FUSE
 10
-7.1390
 20
-0.0800
 11
-5.6390
 21
-0.0800
  0
LINE
  8
FUSE
 10
-5.6390
 20
-0.7050
 11
-5.6390
 21
-0.0800
  0
LINE
  8
FUSE
 10
-5.6390
 20
-0.7850
 11
-5.6390
 21
-0.7050
  0
LINE
  8
FUSE
 10
-7.1390
 20
-0.7850
 11
-7.1390
 21
-0.7050
  0
LINE
  8
FUSE
 10
-7.1390
 20
-0.7050
 11
-7.1390
 21
-0.0800
  0
LINE
  8
FUSE
 10
-7.0590
 20
-0.7050
 11
-7.0590
 21
-0.0800
  0
LINE
  8
FUSE
 10
-5.7190
 20
-0.7050
 11
-5.7190
 21
-0.0800
  0
LINE
  8
FUSE
 10
-7.8890
 20
0.4550
 11
-4.8890
 21
0.4550
  0
LINE
  8
FUSE
 10
-5.3890
 20
-0.4550
 11
-4.8890
 21
-0.4550
  0
LINE
  8
FUSE
 10
-5.6390
 20
-0.4550
 11
-5.3890
 21
-0.4550
  0
LINE
  8
FUSE
 10
-7.8890
 20
-0.4550
 11
-7.1390
 21
-0.4550
  0
POINT
  8
FUSE
 10
-20.4200
 20
-0.7050
  0
LINE
  8
FUSE
 10
-9.5450
 20
-7.0280
 11
-9.5450
 21
-6.8720
  0
POINT
  8
FUSE
 10
-6.3890
 20
-1.0040
  0
LINE
  8
FUSE
 10
-5.7010
 20
-6.8720
 11
-5.5450
 21
-6.8720
  0
POINT
  8
FUSE
 10
-5.5450
 20
-6.8720
  0
LINE
  8
FUSE
 10
-5.7320
 20
-7.0280
 11
-5.5450
 21
-7.0280
  0
LINE
  8
FUSE
 10
-5.7320
 20
-6.8720
 11
-5.5450
 21
-6.8720
  0
LINE
  8
FUSE
 10
-5.7320
 20
-6.7160
 11
-5.5450
 21
-6.7160
  0
LINE
  8
FUSE
 10
-5.7320
 20
-7.6220
 11
-5.7320
 21
-6.1220
  0
LINE
  8
FUSE
 10
-5.7640
 20
-7.6220
 11
-5.7640
 21
-6.1220
  0
LINE
  8
FUSE
 10
-5.7640
 20
-6.1220
 11
-5.7320
 21
-6.1220
  0
LINE
  8
FUSE
 10
-5.7640
 20
-7.6220
 11
-5.7320
 21
-7.6220
  0
POINT
  8
FUSE
 10
-5.5450
 20
-6.8720
  0
LINE
  8
FUSE
 10
-5.5130
 20
-7.1530
 11
-5.5130
 21
-6.5910
  0
LINE
  8
FUSE
 10
-5.5450
 20
-6.5910
 11
-5.5130
 21
-6.5910
  0
LINE
  8
FUSE
 10
-5.5450
 20
-7.1530
 11
-5.5130
 21
-7.1530
  0
LINE
  8
FUSE
 10
-5.3650
 20
-6.9220
 11
-5.3650
 21
-6.8220
  0
LINE
  8
FUSE
 10
-5.5130
 20
-6.8220
 11
-5.3650
 21
-6.8220
  0
LINE
  8
FUSE
 10
-5.5130
 20
-6.9220
 11
-5.3650
 21
-6.9220
  0
LINE
  8
FUSE
 10
-25.1700
 20
-6.7160
 11
-21.9200
 21
-6.7160
  0
LINE
  8
FUSE
 10
-11.8450
 20
-6.7160
 11
-11.7450
 21
-6.7160
  0
LINE
  8
FUSE
 10
-16.5450
 20
-6.7160
 11
-14.6070
 21
-6.7160
  0
LINE
  8
FUSE
 10
-14.6070
 20
-6.7160
 11
-13.0450
 21
-6.7160
  0
LINE
  8
FUSE
 10
-12.1700
 20
-6.7160
 11
-11.8450
 21
-6.7160
  0
LINE
  8
FUSE
 10
-11.7450
 20
-6.7160
 11
-11.3450
 21
-6.7160
  0
LINE
  8
FUSE
 10
-17.2950
 20
-6.7160
 11
-16.5450
 21
-6.7160
  0
LINE
  8
FUSE
 10
-19.2950
 20
-6.7160
 11
-17.2950
 21
-6.7160
  0
LINE
  8
FUSE
 10
-20.4950
 20
-6.7160
 11
-20.1700
 21
-6.7160
  0
LINE
  8
FUSE
 10
-20.5950
 20
-6.7160
 11
-20.4950
 21
-6.7160
  0
LINE
  8
FUSE
 10
-21.1700
 20
-6.7160
 11
-20.5950
 21
-6.7160
  0
LINE
  8
FUSE
 10
-25.1700
 20
-7.0280
 11
-21.9200
 21
-7.0280
  0
LINE
  8
FUSE
 10
-11.8450
 20
-7.0280
 11
-11.7450
 21
-7.0280
  0
LINE
  8
FUSE
 10
-16.5450
 20
-7.0280
 11
-14.6070
 21
-7.0280
  0
LINE
  8
FUSE
 10
-14.6070
 20
-7.0280
 11
-13.0450
 21
-7.0280
  0
LINE
  8
FUSE
 10
-12.1700
 20
-7.0280
 11
-11.8450
 21
-7.0280
  0
LINE
  8
FUSE
 10
-11.7450
 20
-7.0280
 11
-11.3450
 21
-7.0280
  0
LINE
  8
FUSE
 10
-17.2950
 20
-7.0280
 11
-16.5450
 21
-7.0280
  0
LINE
  8
FUSE
 10
-19.2950
 20
-7.0280
 11
-17.2950
 21
-7.0280
  0
LINE
  8
FUSE
 10
-20.4950
 20
-7.0280
 11
-20.1700
 21
-7.0280
  0
LINE
  8
FUSE
 10
-20.5950
 20
-7.0280
 11
-20.4950
 21
-7.0280
  0
LINE
  8
FUSE
 10
-21.1700
 20
-7.0280
 11
-20.5950
 21
-7.0280
  0
LINE
  8
FUSE
 10
-13.0450
 20
-6.4970
 11
-13.0450
 21
-6.1220
  0
LINE
  8
FUSE
 10
-13.0450
 20
-7.2470
 11
-13.0450
 21
-7.0280
  0
LINE
  8
FUSE
 10
-13.0450
 20
-6.7160
 11
-13.0450
 21
-6.4970
  0
LINE
  8
FUSE
 10
-13.0450
 20
-7.0280
 11
-13.0450
 21
-6.7160
  0
LINE
  8
FUSE
 10
-14.6070
 20
-7.2470
 11
-14.6070
 21
-7.0280
  0
LINE
  8
FUSE
 10
-16.5450
 20
-6.7160
 11
-16.5450
 21
-6.5910
  0
LINE
  8
FUSE
 10
-17.2950
 20
-7.1530
 11
-17.2950
 21
-7.0280
  0
LINE
  8
FUSE
 10
-11.8450
 20
-7.3720
 11
-11.8450
 21
-7.0280
  0
LINE
  8
FUSE
 10
-11.7450
 20
-6.7160
 11
-11.7450
 21
-6.3720
  0
LINE
  8
FUSE
 10
-12.1700
 20
-6.7160
 11
-12.1700
 21
-6.1220
  0
LINE
  8
FUSE
 10
-12.1700
 20
-7.0280
 11
-12.1700
 21
-6.7160
  0
LINE
  8
FUSE
 10
-19.2950
 20
-6.7160
 11
-19.2950
 21
-6.1220
  0
LINE
  8
FUSE
 10
-19.2950
 20
-7.0280
 11
-19.2950
 21
-6.7160
  0
LINE
  8
FUSE
 10
-20.1700
 20
-6.7160
 11
-20.1700
 21
-6.1220
  0
LINE
  8
FUSE
 10
-20.1700
 20
-7.0280
 11
-20.1700
 21
-6.7160
  0
LINE
  8
FUSE
 10
-20.4950
 20
-6.7160
 11
-20.4950
 21
-6.3720
  0
LINE
  8
FUSE
 10
-20.5950
 20
-7.3720
 11
-20.5950
 21
-7.0280
  0
LINE
  8
FUSE
 10
-21.1700
 20
-6.7160
 11
-21.1700
 21
-6.5910
  0
LINE
  8
FUSE
 10
-21.1700
 20
-7.0280
 11
-21.1700
 21
-6.7160
  0
LINE
  8
FUSE
 10
-21.9200
 20
-7.0280
 11
-21.9200
 21
-6.7160
  0
LINE
  8
FUSE
 10
-21.9200
 20
-7.1530
 11
-21.9200
 21
-7.0280
  0
LINE
  8
FUSE
 10
-25.1700
 20
-6.9320
 11
-25.1700
 21
-6.8120
  0
LINE
  8
FUSE
 10
-25.1700
 20
-6.8120
 11
-25.1700
 21
-6.7160
  0
LINE
  8
FUSE
 10
-25.1700
 20
-7.0280
 11
-25.1700
 21
-6.9320
  0
LINE
  8
FUSE
 10
-25.1700
 20
-9.6220
 11
-25.1700
 21
-7.0280
  0
SOLID
  8
layout
 10
-31.3079
 20
3.5610
 11
-31.3702
 21
3.5610
 12
-31.3391
 22
3.7460
 13
-31.3391
 23
3.7460
  0
SOLID
  8
layout
 10
-31.3702
 20
-0.8190
 11
-31.3079
 21
-0.8190
 12
-31.3391
 22
-1.0040
 13
-31.3391
 23
-1.0040
  0
LINE
  8
layout
 10
-31.3391
 20
1.9987
 11
-31.3391
 21
3.7460
  0
LINE
  8
layout
 10
-31.3391
 20
-1.0040
 11
-31.3391
 21
0.7937
  0
TEXT
  8
layout
 10
-31.6930
 20
1.2029
 40
0.3789
  1
4 \\FR(3/4)
  0
LINE
  8
layout
 10
-31.4641
 20
3.7460
 11
-29.4825
 21
3.7460
  0
LINE
  8
layout
 10
-31.4641
 20
-1.0040
 11
-30.8125
 21
-1.0040
  0
SOLID
  8
layout
 10
-29.7350
 20
4.1939
 11
-29.7350
 21
4.1328
 12
-29.9200
 22
4.1634
 13
-29.9200
 23
4.1634
  0
SOLID
  8
layout
 10
-24.6049
 20
4.1328
 11
-24.6049
 21
4.1939
 12
-24.4200
 22
4.1634
 13
-24.4200
 23
4.1634
  0
LINE
  8
layout
 10
-29.9200
 20
4.1634
 11
-25.8894
 21
4.1634
  0
LINE
  8
layout
 10
-25.0742
 20
4.1634
 11
-24.4200
 21
4.1634
  0
TEXT
  8
layout
 10
-25.8268
 20
3.9701
 40
0.3789
  1
5 \\FR(1/2)
  0
LINE
  8
layout
 10
-29.9200
 20
3.3085
 11
-29.9200
 21
4.2884
  0
LINE
  8
layout
 10
-24.4200
 20
-0.2904
 11
-24.4200
 21
4.2884
  0
LINE
  8
FUSE
  6
HIDDEN
 10
-27.9200
 20
-6.7160
 11
-25.1700
 21
-6.7160
  0
LINE
  8
FUSE
  6
HIDDEN
 10
-27.9200
 20
-7.0280
 11
-25.1700
 21
-7.0280
  0
LINE
  8
FUSE
  6
HIDDEN
 10
-21.9200
 20
-7.0280
 11
-21.1700
 21
-7.0280
  0
LINE
  8
FUSE
  6
HIDDEN
 10
-21.9200
 20
-6.7160
 11
-21.1700
 21
-6.7160
  0
LINE
  8
FUSE
  6
HIDDEN
 10
-20.5950
 20
-7.0280
 11
-20.5950
 21
-6.7160
  0
LINE
  8
FUSE
  6
HIDDEN
 10
-20.4950
 20
-7.0280
 11
-20.4950
 21
-6.7160
  0
LINE
  8
FUSE
  6
HIDDEN
 10
-20.1700
 20
-7.0280
 11
-19.2950
 21
-7.0280
  0
LINE
  8
FUSE
  6
HIDDEN
 10
-20.1700
 20
-6.7160
 11
-19.2950
 21
-6.7160
  0
LINE
  8
FUSE
  6
HIDDEN
 10
-13.0450
 20
-7.0280
 11
-12.6070
 21
-7.0280
  0
LINE
  8
FUSE
  6
HIDDEN
 10
-13.0450
 20
-6.7160
 11
-12.6070
 21
-6.7160
  0
LINE
  8
FUSE
  6
HIDDEN
 10
-12.6070
 20
-7.0280
 11
-12.1700
 21
-7.0280
  0
LINE
  8
FUSE
  6
HIDDEN
 10
-12.6070
 20
-6.7160
 11
-12.1700
 21
-6.7160
  0
LINE
  8
FUSE
  6
HIDDEN
 10
-11.8450
 20
-7.0280
 11
-11.8450
 21
-6.7160
  0
LINE
  8
FUSE
  6
HIDDEN
 10
-11.7450
 20
-7.0280
 11
-11.7450
 21
-6.7160
  0
LINE
  8
FUSE
  6
HIDDEN
 10
-12.6070
 20
-7.0280
 11
-12.6070
 21
-6.7160
  0
LINE
  8
FUSE
  6
HIDDEN
 10
-12.6070
 20
-6.7160
 11
-12.6070
 21
-6.4970
  0
LINE
  8
FUSE
  6
HIDDEN
 10
-12.6070
 20
-7.2470
 11
-12.6070
 21
-7.0280
  0
LINE
  8
FUSE
 10
-14.6070
 20
-7.2470
 11
-13.0450
 21
-7.2470
  0
LINE
  8
FUSE
 10
-14.6070
 20
-6.4970
 11
-13.0450
 21
-6.4970
  0
LINE
  8
FUSE
  6
HIDDEN
 10
-13.0450
 20
-6.4970
 11
-12.6070
 21
-6.4970
  0
LINE
  8
FUSE
  6
HIDDEN
 10
-13.0450
 20
-7.2470
 11
-12.6070
 21
-7.2470
  0
LINE
  8
FUSE
  6
DOT
 10
-16.5450
 20
-7.0280
 11
-16.5450
 21
-6.7160
  0
LINE
  8
FUSE
  6
DOT
 10
-17.2950
 20
-7.0280
 11
-17.2950
 21
-6.7160
  0
TEXT
  8
FUSE
 10
-28.3564
 20
1.2631
 40
0.1263
  1
3 MM Depron
  0
SOLID
  8
layout
 10
-19.9850
 20
-8.1855
 11
-19.9850
 21
-8.2466
 12
-20.1700
 22
-8.2161
 13
-20.1700
 23
-8.2161
  0
SOLID
  8
layout
 10
-12.3549
 20
-8.2466
 11
-12.3549
 21
-8.1855
 12
-12.1700
 22
-8.2161
 13
-12.1700
 23
-8.2161
  0
LINE
  8
layout
 10
-20.1700
 20
-8.2161
 11
-16.4689
 21
-8.2161
  0
LINE
  8
layout
 10
-16.0925
 20
-8.2161
 11
-12.1700
 21
-8.2161
  0
TEXT
  8
layout
 10
-16.4063
 20
-8.4094
 40
0.3789
  1
8
  0
LINE
  8
layout
 10
-12.1700
 20
-8.3411
 11
-12.1700
 21
-7.6845
  0
LINE
  8
layout
 10
-20.1700
 20
-8.3411
 11
-20.1700
 21
-7.6845
  0
LINE
  8
FUSE
 10
-11.7950
 20
-7.3720
 11
-11.7950
 21
-7.0280
  0
LINE
  8
FUSE
 10
-20.5450
 20
-7.3720
 11
-20.5450
 21
-7.0280
  0
SOLID
  8
layout
 10
-20.3600
 20
-9.2031
 11
-20.3600
 21
-9.2642
 12
-20.5450
 22
-9.2337
 13
-20.5450
 23
-9.2337
  0
SOLID
  8
layout
 10
-11.9799
 20
-9.2642
 11
-11.9799
 21
-9.2031
 12
-11.7950
 22
-9.2337
 13
-11.7950
 23
-9.2337
  0
LINE
  8
layout
 10
-20.5450
 20
-9.2337
 11
-16.7458
 21
-9.2337
  0
LINE
  8
layout
 10
-15.9276
 20
-9.2337
 11
-11.7950
 21
-9.2337
  0
TEXT
  8
layout
 10
-16.6832
 20
-9.4270
 40
0.3789
  1
8 \\FR(3/4)
  0
LINE
  8
layout
 10
-11.7950
 20
-9.3587
 11
-11.7950
 21
-7.4345
  0
LINE
  8
layout
 10
-20.5450
 20
-9.3587
 11
-20.5450
 21
-7.4345
  0
SOLID
  8
layout
 10
-27.7350
 20
-9.2031
 11
-27.7350
 21
-9.2642
 12
-27.9200
 22
-9.2337
 13
-27.9200
 23
-9.2337
  0
SOLID
  8
layout
 10
-20.7299
 20
-9.2642
 11
-20.7299
 21
-9.2031
 12
-20.5450
 22
-9.2337
 13
-20.5450
 23
-9.2337
  0
LINE
  8
layout
 10
-27.9200
 20
-9.2337
 11
-23.0397
 21
-9.2337
  0
LINE
  8
layout
 10
-22.2229
 20
-9.2337
 11
-20.5450
 21
-9.2337
  0
TEXT
  8
layout
 10
-22.9771
 20
-9.4270
 40
0.3789
  1
7 \\FR(3/8)
  0
LINE
  8
layout
 10
-27.9200
 20
-9.3587
 11
-27.9200
 21
-7.0905
  0
LINE
  8
layout
 10
-20.5450
 20
-9.3587
 11
-20.5450
 21
-7.4345
  0
SOLID
  8
layout
 10
-11.6100
 20
-9.2199
 11
-11.6100
 21
-9.2810
 12
-11.7950
 22
-9.2505
 13
-11.7950
 23
-9.2505
  0
SOLID
  8
layout
 10
-9.7299
 20
-9.2810
 11
-9.7299
 21
-9.2199
 12
-9.5450
 22
-9.2505
 13
-9.5450
 23
-9.2505
  0
LINE
  8
layout
 10
-11.7950
 20
-9.2505
 11
-11.0121
 21
-9.2505
  0
LINE
  8
layout
 10
-10.1879
 20
-9.2505
 11
-9.5450
 21
-9.2505
  0
TEXT
  8
layout
 10
-10.9495
 20
-9.4438
 40
0.3789
  1
2 \\FR(1/4)
  0
LINE
  8
layout
 10
-9.5450
 20
-9.3755
 11
-9.5450
 21
-7.0905
  0
LINE
  8
layout
 10
-11.7950
 20
-9.3755
 11
-11.7950
 21
-7.4345
  0
SOLID
  8
layout
 10
-19.9850
 20
-5.2464
 11
-19.9850
 21
-5.3075
 12
-20.1700
 22
-5.2770
 13
-20.1700
 23
-5.2770
  0
SOLID
  8
layout
 10
-19.4799
 20
-5.3075
 11
-19.4799
 21
-5.2464
 12
-19.2950
 22
-5.2770
 13
-19.2950
 23
-5.2770
  0
LINE
  8
layout
 10
-20.1700
 20
-5.2770
 11
-19.8912
 21
-5.2770
  0
LINE
  8
layout
 10
-19.5148
 20
-5.2770
 11
-19.2950
 21
-5.2770
  0
TEXT
  8
layout
 10
-19.8286
 20
-5.4703
 40
0.3789
  1
\\FR(7/8)
  0
LINE
  8
layout
 10
-20.1700
 20
-6.0595
 11
-20.1700
 21
-5.1520
  0
LINE
  8
layout
 10
-19.2950
 20
-6.0595
 11
-19.2950
 21
-5.1520
  0
SOLID
  8
layout
 10
-14.4220
 20
-5.3862
 11
-14.4220
 21
-5.4473
 12
-14.6070
 22
-5.4168
 13
-14.6070
 23
-5.4168
  0
SOLID
  8
layout
 10
-12.7919
 20
-5.4473
 11
-12.7919
 21
-5.3862
 12
-12.6070
 22
-5.4168
 13
-12.6070
 23
-5.4168
  0
LINE
  8
layout
 10
-14.6070
 20
-5.4168
 11
-13.6781
 21
-5.4168
  0
LINE
  8
layout
 10
-13.3003
 20
-5.4168
 11
-12.6070
 21
-5.4168
  0
TEXT
  8
layout
 10
-13.6155
 20
-5.6101
 40
0.3789
  1
2
  0
LINE
  8
layout
 10
-12.6070
 20
-6.4345
 11
-12.6070
 21
-5.2918
  0
LINE
  8
layout
 10
-14.6070
 20
-6.4345
 11
-14.6070
 21
-5.2918
  0
LINE
  8
FUSE
  6
DOT
 10
-14.6070
 20
-7.0280
 11
-14.6070
 21
-6.7160
  0
TEXT
  8
FUSE
 10
-24.0765
 20
-5.0573
 40
0.2526
  1
Elevator servo mount
  0
TEXT
  8
FUSE
 10
-18.1596
 20
-4.5981
 40
0.2526
  1
Receiver mount
  0
TEXT
  8
FUSE
 10
-15.0329
 20
-4.5182
 40
0.2526
  1
Battery mount
  0
LINE
  8
layout
 10
-15.4089
 20
-4.4184
 11
-14.6070
 21
-6.4970
  0
LINE
  8
layout
 10
-15.4089
 20
-4.4184
 11
-15.2735
 21
-4.4184
  0
TEXT
  8
layout
 10
-15.2110
 20
-4.6117
 40
0.3789
  1
 
  0
LINE
  8
layout
 10
-18.4366
 20
-4.4983
 11
-17.2950
 21
-6.5910
  0
LINE
  8
layout
 10
-18.4366
 20
-4.4983
 11
-18.3804
 21
-4.4983
  0
TEXT
  8
layout
 10
-18.3179
 20
-4.6916
 40
0.3789
  1
 
  0
LINE
  8
layout
 10
-23.0079
 20
-5.1572
 11
-21.9200
 21
-6.5910
  0
LINE
  8
layout
 10
-23.0079
 20
-5.1572
 11
-22.4768
 21
-5.1572
  0
TEXT
  8
layout
 10
-22.4143
 20
-5.3505
 40
0.3789
  1
 
  0
TEXT
  8
FUSE
 10
-11.1877
 20
-8.5916
 40
0.2526
  1
(Approx)
  0
TEXT
  8
FUSE
 10
-11.9397
 20
-10.5484
 40
0.2526
  1
Adjust length for balance
  0
SOLID
  8
layout
 10
-31.5227
 20
-2.3069
 11
-31.5850
 21
-2.3069
 12
-31.5539
 22
-2.1220
 13
-31.5539
 23
-2.1220
  0
SOLID
  8
layout
 10
-31.5850
 20
-11.4370
 11
-31.5227
 21
-11.4370
 12
-31.5539
 22
-11.6220
 13
-31.5539
 23
-11.6220
  0
LINE
  8
layout
 10
-31.5539
 20
-6.3286
 11
-31.5539
 21
-2.1220
  0
LINE
  8
layout
 10
-31.5539
 20
-11.6220
 11
-31.5539
 21
-7.5336
  0
TEXT
  8
layout
 10
-31.8989
 20
-7.1244
 40
0.3789
  1
9 \\FR(1/2)
  0
LINE
  8
layout
 10
-31.6789
 20
-2.1220
 11
-30.8125
 21
-2.1220
  0
LINE
  8
layout
 10
-31.6789
 20
-11.6220
 11
-30.8125
 21
-11.6220
  0
SOLID
  8
layout
 10
-30.5650
 20
-12.2737
 11
-30.5650
 21
-12.3348
 12
-30.7500
 22
-12.3043
 13
-30.7500
 23
-12.3043
  0
SOLID
  8
layout
 10
-28.4349
 20
-12.3348
 11
-28.4349
 21
-12.2737
 12
-28.2500
 22
-12.3043
 13
-28.2500
 23
-12.3043
  0
LINE
  8
layout
 10
-30.7500
 20
-12.3043
 11
-29.7837
 21
-12.3043
  0
LINE
  8
layout
 10
-28.9617
 20
-12.3043
 11
-28.2500
 21
-12.3043
  0
TEXT
  8
layout
 10
-29.7211
 20
-12.4976
 40
0.3789
  1
2 \\FR(1/2)
  0
LINE
  8
layout
 10
-30.7500
 20
-12.4293
 11
-30.7500
 21
-11.6845
  0
LINE
  8
layout
 10
-28.2500
 20
-12.4293
 11
-28.2500
 21
-11.6845
  0
SOLID
  8
layout
 10
-27.9850
 20
-12.2737
 11
-27.9850
 21
-12.3348
 12
-28.1700
 22
-12.3043
 13
-28.1700
 23
-12.3043
  0
SOLID
  8
layout
 10
-25.3549
 20
-12.3348
 11
-25.3549
 21
-12.2737
 12
-25.1700
 22
-12.3043
 13
-25.1700
 23
-12.3043
  0
LINE
  8
layout
 10
-28.1700
 20
-12.3043
 11
-26.9541
 21
-12.3043
  0
LINE
  8
layout
 10
-26.5793
 20
-12.3043
 11
-25.1700
 21
-12.3043
  0
TEXT
  8
layout
 10
-26.8915
 20
-12.4976
 40
0.3789
  1
3
  0
LINE
  8
layout
 10
-28.1700
 20
-12.4293
 11
-28.1700
 21
-11.6845
  0
LINE
  8
layout
 10
-25.1700
 20
-12.4293
 11
-25.1700
 21
-9.6845
  0
LINE
  8
layout
 10
-14.9601
 20
0.1911
 11
-14.2552
 21
1.3217
  0
LINE
  8
layout
 10
-14.2552
 20
1.3217
 11
-13.9743
 21
1.3217
  0
TEXT
  8
layout
 10
-13.9118
 20
1.1284
 40
0.3789
  1
1/16 X 3/4 X 27 Balsa
  0
LINE
  8
layout
 10
-15.2769
 20
-2.6282
 11
-15.2769
 21
-0.4109
  0
LINE
  8
layout
 10
-15.2769
 20
-2.6282
 11
-15.0600
 21
-2.6282
  0
TEXT
  8
layout
 10
-14.9975
 20
-2.8215
 40
0.3789
  1
Rough balance point
  0
LINE
  8
FUSE
 10
-15.9896
 20
-0.0587
 11
-15.9895
 21
-0.0587
  0
LINE
  8
FUSE
 10
-15.0906
 20
-0.0163
 11
-15.0906
 21
-0.0162
  0
LINE
  8
FUSE
 10
-15.9070
 20
0.3141
 11
-15.8849
 21
-0.1538
  0
LINE
  8
FUSE
 10
-15.6026
 20
0.7598
 11
-15.5931
 21
0.5601
  0
LINE
  8
FUSE
 10
-15.7773
 20
0.7516
 11
-15.7678
 21
0.5519
  0
LINE
  8
FUSE
 10
-16.1152
 20
0.4855
 11
-16.1100
 21
0.3764
  0
ARC
  8
FUSE
 10
-16.0653
 20
0.4878
 40
0.0500
 50
92.6390
 51
182.6390
  0
LINE
  8
FUSE
 10
-14.8168
 20
0.5471
 11
-14.8126
 21
0.4599
  0
LINE
  8
FUSE
 10
-16.0676
 20
0.5377
 11
-14.8691
 21
0.5947
  0
ARC
  8
FUSE
 10
-14.8667
 20
0.5447
 40
0.0500
 50
2.7536
 51
92.6390
  0
LINE
  8
FUSE
 10
-15.8849
 20
-0.1537
 11
-14.9859
 21
-0.1113
  0
LINE
  8
FUSE
 10
-15.0089
 20
0.3747
 11
-14.9859
 21
-0.1114
  0
LINE
  8
FUSE
 10
-15.7773
 20
0.7516
 11
-15.6026
 21
0.7598
  0
LINE
  8
FUSE
 10
-11.3450
 20
-6.7160
 11
-11.2450
 21
-6.7160
  0
LINE
  8
FUSE
 10
-11.3450
 20
-7.0280
 11
-11.2450
 21
-7.0280
  0
LINE
  8
FUSE
 10
-6.3351
 20
-1.2041
 11
-6.3351
 21
-1.0041
  0
LINE
  8
FUSE
 10
-6.4422
 20
-1.2040
 11
-6.4422
 21
-1.0040
  0
LINE
  8
FUSE
 10
-6.4422
 20
-1.2040
 11
-6.3351
 21
-1.2040
  0
LINE
  8
FUSE
 10
-7.0450
 20
-1.0040
 11
-5.7330
 21
-1.0040
  0
LINE
  8
FUSE
 10
-7.0450
 20
-1.0834
 11
-6.4422
 21
-1.0834
  0
LINE
  8
FUSE
 10
-6.3351
 20
-1.0834
 11
-5.7330
 21
-1.0834
  0
LINE
  8
FUSE
 10
-7.0450
 20
-1.0834
 11
-7.0450
 21
-1.0040
  0
LINE
  8
FUSE
 10
-5.7330
 20
-1.0834
 11
-5.7330
 21
-1.0040
  0
LINE
  8
FUSE
 10
-5.4202
 20
-7.3720
 11
-5.4202
 21
-6.9220
  0
LINE
  8
FUSE
 10
-5.4202
 20
-6.8220
 11
-5.4202
 21
-6.3720
  0
LINE
  8
FUSE
 10
-5.5450
 20
-7.3720
 11
-5.5450
 21
-6.3720
  0
LINE
  8
FUSE
 10
-5.5450
 20
-7.3720
 11
-5.4202
 21
-7.3720
  0
LINE
  8
FUSE
 10
-5.5450
 20
-6.3720
 11
-5.4202
 21
-6.3720
  0
LINE
  8
FUSE
 10
-12.4200
 20
-0.3750
 11
-12.4200
 21
0.3750
  0
SOLID
  8
layout
 10
-14.7350
 20
-1.8114
 11
-14.7350
 21
-1.8725
 12
-14.9200
 22
-1.8420
 13
-14.9200
 23
-1.8420
  0
SOLID
  8
layout
 10
-12.6049
 20
-1.8725
 11
-12.6049
 21
-1.8114
 12
-12.4200
 22
-1.8420
 13
-12.4200
 23
-1.8420
  0
LINE
  8
layout
 10
-14.9200
 20
-1.8420
 11
-12.3846
 21
-1.8420
  0
TEXT
  8
layout
 10
-12.3221
 20
-2.0353
 40
0.3789
  1
2 \\FR(1/2)
  0
LINE
  8
layout
 10
-14.9200
 20
-1.9670
 11
-14.9200
 21
-0.4375
  0
LINE
  8
layout
 10
-12.4200
 20
-1.9670
 11
-12.4200
 21
-0.4375
  0
TEXT
  8
FUSE
 10
-13.5158
 20
2.1076
 40
0.3789
  1
SPAR
  0
ENDSEC
  0
EOF
